Thông báo
Thông báo
Thông báo

nhung bai tap co ban

Xem chủ đề cũ hơn Xem chủ đề mới hơn Go down

nhung bai tap co ban

Bài gửi by demtrangtinhyeu1808 on Sun Oct 17, 2010 7:49 am

affraid lol! Những bài tập guitar cơ bản
________________________________________
Các bạn nào mới tập có thể luyện tay theo bài này nhé

Trước hết, cần giải thích các ký hiệu:

^ : đây là ký hiệu thể hiện động tác hất lên của tay phải, đánh bằng pick (miếng gảy)
v : ------------------------------------------------ xuống --------------------------------------------------
Các số viết trong dòng kẻ thể hiện số của phím đàn: khi viết số 1 thì tay trái ấn vào phím số 1.

Các số viết ngoài dòng kẻ thể hiện các ngón tay của tay trái sẽ dùng để bấm vào phím đàn:
1: ngón trỏ
2: ngón giữa
3: ngón đeo nhẫn
4: ngón út

Những lưu ý :
- Trong phần này bạn nên nhớ là mỗi nốt được gảy một lần bằng miếng gảy(móng). Một gảy lên và một đánh xuống bất kể nốt tiếp theo là nằm ở dây nào.
- Ngoài ra một phần rất quan trọng là bạn cần giữ khoảng cách giữa các đầu ngón tay và dây đàn không quá 1cm (cái này rất quan trọng vì nó giúp bạn tăng tốc độ rất nhanh).
- Khi gảy bằng móng các bạn nên đặt móng nghiêng so với dây đàn một góc (khoảng 45 độ) để khi gảy không bị vấp đồng thời nó cũng tạo cho bạn cảm giác tốt khi tập quét(Sweep).
- Tất cả các bài tập dưới đây, note nhạc đều được viết ở móc kép và default tempo = 80. Mục đích của chúng ta là đưa tốc độ lên càng cao càng tốt. Tempo cao nhất có thể đạt được, ban đầu hãy đặt ở 160 (đạt được đến mức này thì bạn đã gần đánh được Highway star rồi)


Phần 1:

Bài tập đầu tiên.

Bài tập này có tác dụng như một bài khởi động trước khi luyện tập, tuy đơn giản và nhàm chán nhưng rất quan trọng.

^ v ^ v
E-----------------------------------------------------------------------1--2--3--4--
B---------------------------------------------------------1--2--3--4----------------
G-------------------------------------------1--2--3--4------------------------------
D-----------------------------1--2--3--4--------------------------------------------
A---------------1--2--3--4----------------------------------------------------------
E-1--2--3--4------------------------------------------------------------------------
1 2 3 4

Thông thường bài tập này cần thực hiện 15’ trước mỗi buổi tập, ban đầu tốc độ là 2s 1 note, sau đó tăng dần tốc độ lên 1s 1 note, rồi đến 1s 2 note, … Đánh xong một note phải nhấc ngay ngón tay đang bấm note đó lên.

Đặc biệt với những bài tập guitare solo, dù bất kỳ trường hợp nào, khi đánh cũng phải để tiếng đàn thật gọn, sạch, không được để sinh ra bất kỳ một tạp âm nào (tẹt, rè do chạm dây khi nhấc ngón hoặc chạm phím khi đặt ngón) vì như vậy tiếng đàn nghe sẽ thê thảm, nhất là khi lên loa hoặc dùng phơ. Nếu không đảm bảo được tiếng đàn thì cần lập tức hạ tốc độ xuống.

Bài tập thứ hai.

^ v ^ v ^ v ^ v ^ v ^ v ^ v ^ v ^ v
E--------------------------------------------------------5--7--8---
B---------------------------------------------5--7--8--------------
G----------------------------------4--5--7-------------------------
D-----------------------4--5--7------------------------------------
A------------3--5--7-----------------------------------------------
E-3--5--7----------------------------------------------------------
1 2 4 1 2 4 1 2 4 1 2 4 1 3 4 1 3 4


^ v ^ v ^ v ^ v ^ v ^ v ^ v ^ v ^ v
E-8--7--5---------------------------------------------------------
B------------8--7--5----------------------------------------------
G-----------------------7--5--4-----------------------------------
D----------------------------------7--5--4------------------------
A---------------------------------------------7--5--3-------------
E--------------------------------------------------------7--5--3--

4 3 1 4 3 1 4 2 1 4 2 1 4 2 1 4 2 1

Bài tập này được sử dụng khá rộng rãi. Rất nhiều nhạc phẩm sử dụng một phần bài tập này
________________________________________

________________________________________
Bài tập thứ ba.

Chú ý từ bài tập này, các bạn sẽ phải tự xếp ngón. Tay phải vẫn như thế, bắt đầu đánh note đầu tiên thì hất lên, sau đó cứ 1 note xuống 1 note lên.

E-10--8--7--8--7--------7----------------------------------------------------------------
B----------------------10-----10--8--10--8--7--8--7------7---------------------------
G-------------------------------------------------------------9------9--7--9--7--6--------
D---------------------------------------------------------------------------------------------
A---------------------------------------------------------------------------------------------
E---------------------------------------------------------------------------------------------




E-------------------------------------------------------------------------------------------------
B-------------------------------------------------------------------------------------------------
G-------------------------------------------------------------------------------------------------
D-----------------------------------------------------------------7-------7--8--7--8--9-------
A------------------------7---------7--8--7--8--10--8--10------10--------------------------
E-7--8--10--8--10------10-------------------------------------------------------------------

Theo tác giả thì những bài tập này rất có tác dụng giúp tăng cảm giác của tay trái.


E--------------------------------------------------5-7-8-7-5--------------------------------
B-----------------------------------------5-6-7---------------7-6-5-------------------------
G-------------------------2-4-5-4-5-7-------------------------------7-5-4-----------------
D-----------------2-4-5--------------------------------------------------------5-4-2--------
A---------2-3-5------------------------------------------------------------------------5-3-2
E-2-3-5---------------------------------------------------------------------------------------

HÃY NHỚ ban đầu phải đánh rất chậm rồi mới tăng tốc độ dần dần. Đến chừng nào bạn nghe thấy tiếng đàn không còn sạch thì phải hạ tốc độ ngay lập tức và bắt đầu lại. Không nên ham hố nhanh mà hỏng tiếng đàn.


E-7-8-10-----------8-10-12------------10-12-13-------------12-13-15---------------------
B-----------7-8-10------------8-10-12-------------10-12-13--------------12-13-15--------
G------------------------------------------------------------------------------------------------------
D------------------------------------------------------------------------------------------------------
A------------------------------------------------------------------------------------------------------
E------------------------------------------------------------------------------------------------------


E--------------------------------------------------------------------------------------------20----------
B-------------------------------------------------------------------------------17-19-20--------------
G-----------------------------------------------------------------16-17-19----------------------------
D-14-16-17--------------16-17-19-------------16-17-19----------------------------------------
A--------------16-17-19--------------16-17-19----------------------------------------------------
E---------------------------------------------------------------------------------------------------------

Bắt đầu từ bài này là những bài tập tương đối khó, nên khi tập cần phải tập cẩn thận và kỹ càng. Một đoạn này cần tập đi tập lại, và cần phải tiếp tục luyện tập các bài cơ bản trước. Nói chung cứ từ từ tập thì sẽ ổn


lol! :afro: Sleep
avatar
demtrangtinhyeu1808
Tập xong Romance 1 dây
Tập xong Romance 1 dây

Tổng số bài gửi : 46
Điểm Thưởng vì đóng góp : 121
Join date : 15/10/2010
Age : 27
Đến từ : VIET YEN BAC GIANG

Xem lý lịch thành viên

Về Đầu Trang Go down

Xem chủ đề cũ hơn Xem chủ đề mới hơn Về Đầu Trang

- Similar topics

 
Permissions in this forum:
Bạn không có quyền trả lời bài viết